Originally by: Allman Brothers

Tuning: Standard

E-A-D-G-B-E


Difficulty: **

Intermediate


Additional Tabs:



Helpful Videos:

Most Helpful Video:

 

Melissa













Intro
-----------------------
-----------------------
---1-----2/4-----2-----
---2-----4/6-----4-----
---2-----4/6-----4-----
---0-------------------


Verse
----------------------
----------------------
---1-----2/4-----2----
---2-----4/6-----4----
---2-----4/6-----4----
---0------------------


----------------------------------
----------------------------------
---1------------------------2-----
---2------------------------4-----
---2------------------------4-----
---0------------------------------


---------2/4------------2-----
---------3/5------------3-----
---2-----4/6------------2-----
---2-----4/6------------------
---2-----2/4------------------
---------0-0------------------


-----------------------
-----------------------
---1-----2/4-----2-----
---2-----4/6-----2-----
---2-----4/6-----2-----
---0-------------------


------------------------------
---1------------------4-------
---0------------------4------- then repeat intro to finish the verse
---2------------------4-------
---3------------------2-------
---0------------------0-------


Bridge
--------2----2---------4----2----------
--------3----2----4----5----2----4-----
---1----2----2----4----6----2----4-----
---2--------------4----6---------4-----
---2--------------2----4---------2-----
---0--------------0----0---------0-----


Ending
-----------------------------
---1------------------4------
---0------------------4------ then repeat intro to finish the verse (to end,
---2------------------4------ play section again starting from the C chord)
---3------------------2------
---0------------------0------