Studio Version:

Most Helpful Video:

Album: UTTAD

 

Lover Lay Down













Tuning: Standard

E-A-D-G-B-E


Difficulty: ***

Advanced


Additional Tabs:



Helpful Videos:

> DMB '13

Verse

E:--------------------------------
B:--------------------------------
G:----2\4-----4-------6--7--7----- <---4on7
D:----0-------5\7-----7--7--7----- <---3
A:--------------------------------
E:-2-------3-------5-------7--5/--
   1  (2)  1  (3)  1       2  1


Chorus

E:---------------------------------------
B:-2-2--3-3-------5---------3-2----------
G:-2-2--4-x----4--4----4-4--x-x----7--7--
D:-2-2--2-4----2--2----5-5--x-x----7--7--
A:-------------x--x----x-x--2-2----x--x--
E:-----------4-4--4----3-3--3-3--7-7--5--


Outro

E:-------------
B:-------------
G:----2\4--(4)-
D:----0----(5)-
A:-------------
E:-2--------3--
   1  (2)   1