Studio Version:

Most Helpful Video:

Album: Stand Up

 

Louisiana Bayou













Tuning: Standard

E-A-D-G-B-E


Difficulty: ***

Advanced


Additional Tabs:



Helpful Videos:

Intro/Post-Chorus (guitar 1):
e-10----9----12-|
b----12---10----|
g---------------|
d---------------|
a---------------|
E---------------|

Intro/Post-Chorus (guitar 2):
e--------------------|
b-----------10-7-8---|
g-7---7/9-9--------9-|
d---9----------------|
a--------------------|
E--------------------|


Verse/Chorus:
e-------------------|
b-------------------|
g-------------------|
d-------------------|
a-----7p5-5---4h5-5-|
E-5-5-------5-------|

*feel free to play around with this, this tab is just a skeleton really

Bridge:

The verse/chorus riff plays over the bridge in the studio, but this is the "bassline" (live, dave doesn't even play during this part)

e--------|--------|----------|--------|
b--------|--------|----------|--------|
g--------|--------|----------|--------|
d--------|--------|-9-7-7----|-7-7-7--|
a-7-5-3--|-3-3-2--|-7-5-3h4--|-4---7--|
E-5-3-1--|-1-1-0--|-0--------|---7-5--|