Most Helpful Video:

Originally by: Lefty Frizzell

 

Long Black Veil













Tuning: Standard

E-A-D-G-B-E


Difficulty: ***

Advanced


Additional Tabs:



Helpful Videos:

Intro/Jam

E:------------------------------
B:------------------------------
G:----9--------9-----------9---- <---2
D:----10---12-----12--10--(10)-- <---3
A:------------------------------
E:-8----------------------------
   1       4   2  4   3


Verse

Play this followed by the "Intro"(x2) for 1 go-around

E:------------------------------------------
B:------------------------------------------
G:----9----------9-----------7----------9--- <---2on9(1on7)
D:----10---------10----------9----------10-- <---3on10(2on9)
A:----x----------x-------10--10------8------ <---3on10
E:-8--8-------8--8--------------------------


"She walks these hills..."

Play this followed by "Nobody knows..." for the Chorus

E:-1------0------1------0--
B:-1------1------1------1--
G:-2------0------2------0--
D:-3------2------3------2-- x2
A:-3------3------3------3--
E:-1-------------1---------


"Nobody knows..."

Play this once after "She walks these hills..." for the Chorus

E:-0------------1------0------1------3--
B:-1------------1------1------1------0--
G:-0------------2------0------2------0--
D:-2------------3------2------3------0--
A:-3------------3------3------3------2--
E:--------------1-------------1------3--


Slow End

E:------
B:------
G:------
D:-10\--
A:------
E:-8\---