Tuning: Standard

E-A-D-G-B-E

Comment: Thanks to Ranting Thespian


Difficulty: ***

Advanced


Additional Tabs:



Helpful Videos:

Light Lift Me Up

Most Helpful Video:

 












7/11/2001

Dave fiddles around with a few variations of this

Basic riff
e-----------------------------------------
B-----*3-----*3p0--------1p0-------3------
G-----------------------------------------
D----2------2---------2---------2---------
A--2------3-------------------------------
E------------------1---------3------------
*he might play it open at points


8/10/2001

These are 4 variations on the riff Dave plays.  He mixes it up throughout the song, so just play what feels right.


Variation 1
e---------------------------------
B---------------------------------
G---------------------------------
D---------------------------------
A--2--3----------2--3-------------
E--------1--3----------1--3-------


Variation 2
e---------------------------------------------------------
B------3------3------3------3--------3------3-------*3----
G-----(0)----(0)----(0)----(0)------(0)----(0)------*0----
D----2------2------2------2--------2------2---------*2----
A--2------3----------------------2------3-----------------
E----------------1------3----------------------1--3-------

*sometimes he doesn't play this at all


Variation 3
e--------------------------------------------------------------------
B------3------3---3------3------3----3--------3------3-------*3------
G-----(0)-------0-------(0)----(0)-0---------(0)----(0)------*0------
D----2------2----------2------2-------------2------2---------*2------
A--2------3-------------------------------2------3-------------------
E--------------------1------3---------------------------1--3---------
*same as before


Variation 4

e--------------------------------------------------------------------
B------3------3---3------3------3----3--------3------3-------*3------
G-----(0)----(0)-(0)----(0)----(0)--(0)------(0)----(0)------*0------
D----2------2---2------2------2----2--------2------2---------*2------
A--2------3-------------------------------2------3-------------------
E--------------------1------3---------------------------1--3---------
*and once again for good measure