Studio Version:

Most Helpful Video:

Album: Crash

 

Lie In Our Graves













Tuning: Standard

E-A-D-G-B-E


Difficulty: ***

Advanced


Additional Tabs:


Helpful Videos:

> Dave and Tim '14

Verse

E:-2--------x--------------------------
B:-3--------x--------------------------
G:-2--------x-----------2--------4--4--
D:-0--------x--0--2--4-----4-----2--2--
A:----4--2--x--------------------------
E:----------x-----------------3--------
      4  1        1  4  1  4  2


Band Comes In Here

E:-2--------x--0--0--3--
B:-3--------x--0--2--0--
G:-2--------x--0--2--0--
D:-0--------x--2--2--0--
A:----4--2--x--2-----2--
E:----------x--0-----3--


E:-2-------------------------------------
B:-3------------------1-------------------
G:-2--------2---------2--0h2--0-----------
D:-0--2--4-----4--0---2----------4--2--4--
A:----------------------------------------
E:----------------------------------------
      1  4  1  4         (1)     4  1  4


First small jam

E:----------------0----2-----------
B:----------------1----3-----------
G:-5--5\7--5--7---2----4----5---4--
D:-x--x----x--x---2----4----x---x-- x2
A:-3--3\5--3--5---0----2----3---2--
E:---------------------------------


Long Jam Start/End

Strum a D-chord instead of first chord as lead in(first time only)

E:-------------------------
B:-------------------------
G:-11---9---7---4---4---6-- <---2
D:-x----x---x---x---x---x--
A:-x----x---x---x---x---x--
E:-10---9---7---3---3---5-- <---1


Long Jam Middle

Played when jam starts to get fast

E:-------------------------
B:-------------------------
G:-12---7---6---2---2---4-- <---2
D:-x----x---x---x---x---x--
A:-x----x---x---x---x---x--
E:-12---7---5---2---2---3-- <---1


Long Jam End Variation

E:--------------------------------
B:--------------------------------
G:-11---9-12-11-9--7---4---4---6-- <---2
D:-x----x----------x---x---x---x--
A:-x----x----------x---x---x---x--
E:-10---9----------7---3---3---5-- <---1
          4  4  2