Studio Version:

Most Helpful Video:

Album: Busted Stuff

 

Kit Kat Jam













Tuning: Standard

E-A-D-G-B-E

Comment: Dave plays using 12-string guitar


Difficulty: ***

Advanced


Additional Tabs:



Helpful Videos:

> DMB '02

Verse/Intro

When leading into middle jam don't play the 3's

When coming from "But Only This" part, hit last 3's first

E:---------------------------------------------
B:---------------------------------------------
G:---------------------------------------------
D:-3----1-0--3----(0h)1h3--3----1-0--3---------
A:-x---------x-------------x---------x---------
E:-1---------1-------------1---------1----3-3--
        1             1_4       1         2 2


Middle Jam

Notes that are doubles are hit on a single stroke each

E:---------------------------------------------
B:---------------------------------------------
G:-/8--8--7----5--5--4-------------------------
D:--x--x--x----x--x--x----/6--6--5----3--3--5--
A:-/6--6--5----3--3--2-----x--x--x----x--x--x--
E:------------------------/4--4--3----1--1--3--


"But only this..."

Second chord is played by barring 2's w/ 1st finger

E:-------------------
B:-2----2----2------- <---3on 3rd-2
G:-2----2----2----1-- <---2on 3rd-2
D:-2----2----x----2--
A:-x----x----x----2--
E:------3----2----0-- <---2on3(1on2)
   1