Most Helpful Video:

 

Kill the King













Tuning: Standard

E-A-D-G-B-E


Difficulty: **

Intermediate


Additional Tabs:



Helpful Videos:

Verse

e|---------------------------|
B|---------------------------|
G|---------------------------|
D|--------------2-2-2-2-5-2--|
A|------5---7-5-2-2-2-2-2-2--|
E|--3-7---5-----0-0-0-0-3-0--|

    |---> Palm muted throughout


Chorus

e|--8---10--7--|
B|--8---10--7--|
G|--9---11--7--|
D|--10--12--9--|
A|--10--12--9--|
E|--8---10--7--|


Verse-->Bridge                  (Bridge)


"...laugh makes me know
e|--8------10-----|-----|     |--0--------|
B|--8------10-----|-(0)-|     |--0-(0)----|
G|--9------11-----|--x--|     |--9--x--8--|
D|--10-----12-----|--9--|     |--6--9--9--|
A|--10-----12-----|--6--|     |--7--6--x--|
E|--8------10-----|--7--|     |--0--7--11-|


For the quiet part with just Dave and Boyd...
                  ...then gradually work in the root notes


e|--0---0----0--|--0---0-------|
B|--8---10---7--|--0---0----7--|
G|--9---11---7--|--9---11---7--|
D|--10--12---9--|--10--12---9--|
A|--10--12---9--|--10--12---9--|
E|--------------|-(8)-(10)-(7)-|


"just your laugh...know...I can Kill the King


e|--0--------0------7-----8---8---|\
B|--0--------0------7-----8---8---| \
G|--9--------11-----7-----9---9---|  \  Back to verse section
D|--10-------12-----9-----10--10--|  /
A|--10-------12-----9-----10--10--| /
E|--8--------10-----7-----8---8---|/


That's it!  Enjoy!


Verse:
----------------0--
----------------0--
----------------9--
-----0-----0----9--
---2-----7---7--7--
-3-----5-----0--0--


Chorus:
-0--2--2--0--------
-1--3--3--1--------
-0--2--4--0--------
-2--0--4--2--------
-3-----2--3--------
-------------------


Bridge:
-0--0--------------
-0--0--4--4--------
-1--4--4--4--------
-2--2--4--1--------
-2--x--2-----------
-0--4--------------


*On the chorus before the bridge replace the last two chords of the chorus with the last two chords of the bridge.