Studio Version:

Most Helpful Video:

Album: Lillywhite Sessions

 

JTR













Tuning: Standard

E-A-D-G-B-E

Comment: Dave plays on a 12-string guitar


Difficulty: ***

Advanced


Additional Tabs:



Helpful Videos:

> DMB '13

Intro/Verse

E:-----------------------------------------------
B:-----------------------------------------------
G:----2p0---2/4-----4--------5p4------4---2---0--
D:----------------------1/3-----------0---0---0--
A:-----------------------------------------------
E:-2-------------3-----------------3-------------
   1  (2)   (2)  1  2   (1)  4_3   2  4   1


"Rain, Rain..."

E:----------------------------------------------
B:----------------------------------------------
G:-5-----5-----5-----5-----5-----4-----3-----2--
D:-2----/3-----2----/3-----2-----2-----1-----3--
A:-x-----x-----x-----x-----x-----x-----x-----3--
E:-5-----5-----5-----5-----5-----3-----3-----1--


Quick Pulses before "Rain, Rain..." Part

E:----
B:----
G:----
D:-3--
A:-x--
E:-1--


Middle Jam

When ending middle Jam, Hit last chord with 3 fast strokes(D, U, D)

E:--------------------------------------------------
B:--------------------------------------------------
G:--------------------------------------------------
D:-5----5---5----5---5----5-----x---5----5---------- <---4
A:-2/3--2---2/3--2---2/3--2/3---x---2/3--2---3---3-- <---1on2, 4on3
E:-------------------------------------------1---0--
   (1)      (1)      (1)  (1)       (1)          4


E:----------------------------------------------
B:----------------------------------------------
G:----------------------------------------------
D:-5----5---5----5---5----5-----x---5----5------ <---4
A:-2/3--2---2/3--2---2/3--2/3---x---2/3--2---3-- <---1on2, 4on3
E:-------------------------------------------1--
   (1)      (1)      (1)  (1)       (1)        


To Play Transition into Riff Jam just slide around on Bass Notes


Riff Jam

E:----------------------------------------
B:----------------------------------------
G:----------------------------------------
D:----------------------------------------
A:-7-------------------5-------5---5---6--
E:-----4---5---6---7-------7--------------
   3   1   2   3   4   1   4   1   1   2 


Breakdown in Middle of Riff Jam

This goes right back into Riff Jam

E:-----------------
B:-----------------
G:-----------------
D:-/9-----6-----7--
A:-/7-----4-----5--
E:-----------------


End

E:------------------
B:------------------
G:------------------
D:-/9-----/5-----4--
A:-/7-----/3-----2--
E:------------------