Studio Version:

Most Helpful Video:

Album: UTTAD

 

Jimi Thing













Tuning: Standard

E-A-D-G-B-E


Difficulty: ***

Advanced


Additional Tabs:



Helpful Videos:

> DMB '10

> Dave and Tim '14

Intro

This is an old D&T intro(Think Angel)

E:-------------------------------------------------
B:-------------------------------------------------
G:----------------------------------------------6--
D:-10h12--10h12---------------------------------7--
A:----------------10h12--10h12---9h10-9h10--7---7--
E:----------------------------------------------5--
    1_3    1_3     1_3    1_3    1_2  1_2   1 


Intro/Verse

E:---------------------------------------------------
B:-------------------------9-----9---------2---------
G:---------------------x---9-----9---------2----6h7--
D:------------9-----9--x---9h11--9---------2----7----
A:------7-----9h11--9--x--------------11\------------
E:-7h9-----9-----------------------------------------
   1_3  1  3  1_3   1      1_3   1    (3)  1    1_3


"What I want is what I've NOT....GOT"

E:-----------------------------------------------
B:-------------------------9-----9---------2--2--
G:---------------------x---9-----9---------2--2--
D:------------9-----9--x---9h11--9---------2--2--
A:------7-----9h11--9--x--------------11\--------
E:-7h9-----9-------------------------------------
   1_3  1  3  1_3   1      1_3   1    (3)  1  1


Verse -> Pre-Chorus

E:----------------------------
B:-------------------------9--
G:---------------------x---9--
D:------------9-----9--x---9--
A:------7-----9h11--9--x------
E:-7h9-----9------------------
   1_3  1  3  1_3   1      1


Pre-Chorus

E;-2-----1-----2-----0---0---2-----1-----2--------------------
B:-3-----1-----3-----1---1---3-----1-----3--------------------
G:-2-----2-----2-----0---0---2-----2-----2-----9----7------x--
D:-0-----3-----0-----2---3---0-----3-----0-----10----------x--
A:-------3-----------3---3---------3-----------x----x------x--
E:-------1-------------------------1-----------8----7\---3-x--
                                                         1

Chorus("Sometimes I take a Jimi Thing...")

Played 3 times

E;-------------------         E:----------
B:-------------------         B:----------
G:-2-----------------         G:-1-----1--
D:-2----------4---4-- x2 then D:-2-----2--
A:------------x---2--         A:-2-----2--
E:-----3---2--x---0--         E:-0-----4--
   1   2   1  4


End Chorus

E:----
B:----
G:-2-- <---3
D:-2-- <---2
A:-0--
E:----


"Lately IIII've been..."

This part is mid-song when he gets that really high pitched voice, he plays this D&T and sometimes nothing w/ full band

E:-----------         E:----
B:-----------         B:-2--
G:-9------6--         G:-2--
D:-9------7-- ends on D:-2--
A:-7------7--         A:----
E:--------5--         E:----


Jam

This is the basic riff Dave plays during the full band jam....he doodles A LOT though

E:-----------------------
B:-----------------------
G:-----------------------
D:---------12------7--7--
A:-2h4/----x-------7--7--
E:---------10------5--5--