Studio Version:

Most Helpful Video:

Album: Everyday

 

If I Had It All













Tuning: Standard

E-A-D-G-B-E


Difficulty: ***

Advanced


Additional Tabs:



Helpful Videos:

> DMB '02

Studio Intro

E:--------------5---5h7-----------7-----------------------
B:----------7-----------------5-------3-------5---5h7--5-- <---1on5
G:-/6---7-------------------------------------------------
D:----------------------------------------5-------7----7-- <---2on7
A:------------------------7-------------------------------
E:--------------------------------------------------------
   (1)  2   3   1   1_3   2   1   3   1   2   3   1_3


Verse/Live Intro

E:------------------------------3-------
B:------------------------------0----2--
G:------------------------------0----2--
D:---------------7---7h9---9----0----2--
A:-----------9-------------7----2----0--
E:-/9---10----------------(0)---3-------
   (2)  3    2   1   1_4             1


Alternate Verse

It has been played both ways live

E:-----------------------------3-------
B:-----------------------------0----2--
G:-----------------------------0----2--
D:---------------12---9---9----0----2--
A:-----------9------------7----2----0--
E:-/9---10----------------0----3-------
   (1)  2    1   4    1             1


Verse When not Picking

This is only played when Dave does do the slide part(start of song is at least 1part where he does this)

E:------3-------
B:------0----2--
G:-0----0----2--
D:-2----0----2--
A:-2----2----0--
E:-0----3-------
             1


Transition To Chorus

E:------------------------
B:------------------------
G:------------------------
D:-7----5----4----2----0--
A:------------------------
E:------------------------
   1    1    1    1


Chorus

To end chorus, DO NOT PLAY LAST CHORD(keep strumming D-chord)

E:-0-----0-----2-----0--
B:-1-----0-----3-----1--
G:-0-----0-----2-----2--
D:-2-----2-----0-----2--
A:-3-----2-----0-----0--
E:-------0--------------


Breakdown

End Chorus on an Em-chord hit ONCE

E:-3----------------------------------------
B:-0----------------------------------------
G:-0------5----4---7--6------7----5---4--5--
D:-0------x----x---x--x------x----x---x--x--
A:-2------3----2---5--4------5----3---2--3--
E:-3----------------------------------------