Tuning: Standard

E-A-D-G-B-E


Difficulty: ***

Advanced


Additional Tabs:



Helpful Videos:

Intro/Fill
e:--------------------3----3----3------1------1--
B:---1----1----1------0----0----0------3------1--
G:---x----0h2--x------0----0----0------3------2--
D:---2----0----2------0----0h2--0------3------3--
A:-3-3----3----3------2----x----2----1-1------3--
E:------------------3-3----3----3-----------1-1--
   3      (2)       3      (2)


Verse
e:----------3------1------1--
B:---1------0------3------1--
G:---x------0------3------2--
D:---2------0------3------3--
A:-3-3------2----1-1------3--
E:--------3-3-----------1-1--


Chorus
"I won’t give it away...“
e:-----------------------
B:-1--1--3----1----1--1--
G:-2--2--2----2----x--0--
D:-2--2--x----3----2--0--
A:-0--x--x---------3--2--
E:----3--2---------------
      4  3


„Oh, oh...“
e:-------
B:-------
G:-1--1--
D:-2--2--
A:-2--2--
E:-0--4--
      4


„I still want you...“                   “One and only…”
e:---1------1------1---------           e:----
B:---3------3------1------1--           B:-2--
G:---2------3------2------x--           G:-2--
D:-0-0------3------3------2-- x2  then  D:-2--
A:--------1-1------3----3-3--           A:-4-- <----3
E:---------------1-1---------           E:----

Most Helpful Video:

 

I Won't Give It Away