Studio Version:

Most Useful Video:

Album: Remember Two Things

 

I'll Back You Up













Tuning: Standard

E-A-D-G-B-E


Difficulty: ***

Advanced


Additional Tabs:


Useful Videos:

> Dave and Tim '11

Intro

E:------------------------------------------------------------
B:-0-------5----------5---------------------------------------
G:-2-----2---4----4---4---------------------------------------
D:-2---2----------2---2-------4--4-----4------4--2------4-----
A:-0--------------x---x-----------------------2--2---------2--
E:--------------4-4---4----2--------2-----2----------0--------
       2 2 4 3  2          1  4  4  1  4  1             4  1


Verse

E:------------------------------------
B:-2----------5-----------------------
G:-2------4---4-----------------------
D:-2------2---2----4-----4------4-----
A:-0------x---x----------2---------2--
E:------4-4---4----2----------0-------
        2                       4  1


Chorus

E:-------------------
B:-2-----------------
G:-2----2----2----1--
D:-2--------------2--
A:-0----x----x----2--
E:------1----3-------


Lead into Verse from Chorus

E:---------------
B:---------------
G:---------------
D:-2~~~~~/4------
D:------------2--
E:---------------
    (__3__)   1