Studio Version:

Most Useful Video:

Album: Remember Two Things

 

I'll Back You Up - Tim's Solo (Studio Version)













Tuning: Standard

E-A-D-G-B-E


Difficulty: Tim n/a



Additional Tabs:


Useful Videos:

> Dave and Tim '11

Solo

E-------------------------------------------------
B-------------------------------------------------
G-------------------------------------------------
D-------------------------------------------------
A-7-7-7-7--7-7h9/11-11--9h11---7-7h9/11-11-11-9---
E-------------------------------------------------


E------------------------------------------------12-12-12--
B-----------------------------12-9--9/10---10-10-----------
G--------------------11-9--9-------------------------------
D-----------9-9---9----------------------------------------
A--9-9h11-12-----------------------------------------------
E----------------------------------------------------------


E---------12/14-14/16--12--14-16-17-17-16--14-14-------
B--10-10-----------------------------------------------
G------------------------------------------------------
D------------------------------------------------------
A------------------------------------------------------
E------------------------------------------------------


E--12/7--------------------------12/7----4/2-------------
B--------9/7---------------------------------5-2-----5---
G-------------9-6-----9--------------------------1/2-----
D------------------6/7------or---------------------------
A--------------------------------------------------------
E--------------------------------------------------------