Studio Version:

Most Helpful Video:

Album: Everyday

 

I Did It













Tuning: B-E-A-D-F#-B


Difficulty: ***

Advanced



Additional Tabs:

> Standard Tuning


Helpful Videos:

> Dave Solo '01

Intro/Verse

B:--------13\--------------------------- <-Finger 4
F#:-------12\--------------------------- <-Finger 3
D:--------------10---12---14---10---12--
A:--------------x----x----x----x----x---
E:-10-10--------8----10---12---8----10--
B:--------------------------------------
    1  1


"I Did It..."

B:-----------------------------
F#:----------------------------
D:------5---4---------------4-- <---3on5(1on4)
A:------x---x---4---4---7---x-- <---1on4(4on7)
E:-5-5--5---5---5---6---6---5-- <---2on5(3on6)
B:-----------------------------
    2 2


"I never did a single thing..."

B:-------------------
F#:------------------
D:-------------------
A:-9----6----4----2--
E:-9----6----4----2--
B:-7----4----2----0--


Fill/Ending

I'm not positive about the fingering on this but it works

B:--------------------------------------------------------
F#:-------------------------------------------------------
D:----------9--7------------------------------------------
A:----9--7----------------10--9---------9--10--9--10------
E:-7--------------10-------------9--10--------------------
B:--------------------10------------------------------10--
    1  4  1  4  1  3   2   3   1  1  3   1  3   1  3   2