Most Helpful Video:

Originally by: Neil Young

 

Hey Hey, My My (Into the Black)













Tuning: Standard

E-A-D-G-B-E


Difficulty: **

Intermediate


Additional Tabs:



Helpful Videos:

E--0-------------3---------------1-
B--1-------------0---------------1-
G--2-------------0---------------2-
D--2---------0---0---------------3-
A--0--0-2-3------2--0h2-0---0----3-
E--------------3-3--------3----1-1-


E----0------------3--------------1-
B----1------------0--------------1-
G----0------0-0---0--0h2-0-------2-
D----2--0h2----0--0--------2-0---3-
A--3-3------------2--------------3-
E---------------3-3------------1-1-


Chords are 

Am-G-F

C-G-Am-F