Tuning: Standard

E-A-D-G-B-E


Difficulty: ***

Advanced


Additional Tabs:



Helpful Videos:

Most Helpful Video:

 

Help Myself













Intro/Transition #2
E:------------
B:------------
G:---------0--
D:-2---4---0--
A:-2---4------
E:------------
   1  4


Verse
Play once then play Transition #1 for one go-around
E:------------------------
B:------------------------
G:------------------------
D:---------5-----------3--
A:-----4-----------4------
E:-3-----------5----------
   1   2   3   3   2   1


Transition #1
E:-------------------------------------
B:-------------------------------------
G:---------------------------------0---
D:---------4---2-----------4---2--(0)--
A:-2---3-----------2---3---------------
E:-------------------------------------
   1   2   4   1   1   2   4   1


"Ohhhhh colder..."
E:----------------------------------------------
B:----------------------------------------------
G:----------------------------------------------
D:---------9-----------7---6---------------(0)--
A:-----7-----------7-----------7------------0---
E:-5-----------5--------------------7/9--7------
   1   2   4   1   2   3   1   2    (2)  2


"Summer's here..."
E:------------------------------------------
B:------------------------------------------
G:------------------------------------------
D:------------------------------------------
A:-4-----4-----4-----4/5-----4-----4-----4-- <---2on 1st&2nd 4(4on third 4&5)
E:-5-----3-----2-----2/3-----5-----3-----2-- <---3on5(1on 3&2)