Studio Version:

Most Helpful Video:

Album: Stand Up

 

Hello Again













Tuning: Standard

E-A-D-G-B-E


Difficulty: ***

Advanced


Additional Tabs:



Helpful Videos:

Intro/Verse

Pay attention to the spacing
E:---3--3----3--3-3-----3--3----3--3-3-- <---4
B:---3--1----3--3-3-----3--1----3--1-1-- <---1on1, 3on3
G:-0-0-----3-0--0-0---0-0-----3-0--0-0-- <---3
D:--------------------------------------
A:--------------------------------------
E:--------------------------------------

     D  U    D  D U     D  U    D  D U


E:---3--3----3--3-3-----3--3----3--3-3-- <----4
B:---1--1----1--1-1-----3--1----3--3-3-- <----1on1, 3on3
G:---0-----3-0--0-0---0-0-----3-0--0-0-- <----3
D:--------------------------------------
A:-3-3-------3--3-3--------------------- <---3
E:--------------------------------------
     D  U    D  D U     D  U    D  D U


Lead Into Hello Again

Play 1st 3 sections then that

E:-3--3-- <---4
B:-3--3-- <---3
G:-0--0--
D:-------
A:-------
E:-------
   D  D


"Hello Again..."

E:------------------------------------------------------
B:---------------------------1--1-----------------------
G:-3--3---------3--3---------0--0---------3--3----------
D:-x--x---------x--x---------2--2---------x--x----------
A:-1--1---------1--1---------3--3---------1--1----------
E:-3--3--1--3---3--3--1--3---3--3--1--3---3--3----1--3--
         1  3         1  3         1  3           1  3


Breakdown

Hit the 6-8-8 chord very fast before changing

E:--------------------         E:----------------
B:--------------------         B:-------6-----7--
G:-2-------8----8--8--         G:-7-----7-----7--
D:-3-------x----8--7--         D:-8-----7-----7--
A:-3-------6----6--6-- x2 then A:-8-----5-----5--
E:-1---------------8--         E:-6--------------