Most Helpful Video:

 

Heathcliff's Haiku Warriors













Tuning: Standard

E-A-D-G-B-E


Comment: Credit to Ranting Thespian


Difficulty: ***

Advanced


Additional Tabs:



Helpful Videos:

Verse
e-----------------------------
B--3---3----------------------
G--4---2---4---6--------------
D--4-------5---7--------------
A--2--------------------------
E------2---3---5--------------


Chorus
e-----------------------------
B--7---5---5---4--------------
G--6---6---6---4--------------
D--7-------4---4--------------
A--5---4-------2--------------
E----------6------------------


Bridge
e--------------7--------------------------------------------------
B--3---7---5---7---4---2------------------------------------------
G--4---6---4---7---2---3-------------4--------4---4--2--2--1------
D--4---7---5---5---3-------3------2--------2------2--0--0--2------
A--2---5---4-----------1-------0---------------------------2------
E------------------1--------------------4---------3--2--1--0------