Studio Version:

Most Helpful Video:

Album: BTCS

 

Halloween - Tim's Parts













Tuning: Standard

E-A-D-G-B-E


Difficulty: Tim n/a



Additional Tabs:


Helpful Videos:

> Dave and Tim '11

Intro

Guitar 1 & 2

e-------------------------------------------|----------------------------------
B-------------------------------------------|----------------------------------
G-------------------------------------------|----------------------------------
D---------------------------------10--------|-----------------------9-----10---
A------------/8---------9---------x----0----|-------------/8-------x-----x-----
E--1---x--x--------7---------8----8---------|---1--x-x--------7---7-----8------

Do this alot ^^

Verse (does not show strumming, just basic chords)

e--------------------------------------------------------------------------
B--------------------------------------------------------------------------
G--------------------------------------------------------------------------
D---3----x--------9---x-----10---x----x----3-------------------------------
A---x----x---/8---x---x-----x----x----x----x-------------------------------
E---1----x---------7---x-----8----x----x----1------------------------------

Do that few times ^

Then this

e------------------------------------------14----------15---x---x---x---------
B--------------------10--x---x--x---------------------------------------------
G-----------10-----------------------11--------12-----------------------------
D------9---------9------------------------------------------------------------
A--8--------------------------------------------------------------------------
E-----------------------------------------------------------------------------

Then back to the normal vers part again

Chorus

Am7   G   F   E   Am7     Am7addF6  G    F   E

Bridge

e----------0----------0--------------0---------------0----------
B------0-----0----0------0------0------0-------0-------0--------
G---2-----------2------------2--------------2-------------------
D---------------------------------------------------------------
A---------------------------------------------------------------
E---------------------------------------------------------------


e------------------0---------0-----------------------
B---3----x----3----0----3----0---3-------------------
G---4----x----4----2----4----2---4-------------------
D---4----x----4----2----4----2---4-------------------
A---2----x----2----0----2----0---2-------------------
E----------------------------------------------------


Do that few times ^

Then this

e------------------------------------------14----------15---x---x---x---------
B--------------------10--x---x--x---------------------------------------------
G-----------10-----------------------11--------12-----------------------------
D------9---------9------------------------------------------------------------
A--8--------------------------------------------------------------------------
E-----------------------------------------------------------------------------

Then back to the normal vers part again

Chorus

Am7   G   F   E   Am7     Am7addF6  G    F   E

Bridge

e----------0----------0--------------0---------------0-----------
B------0-----0----0------0------0------0-------0-------0---------
G---2-----------2------------2--------------2--------------------
D----------------------------------------------------------------
A----------------------------------------------------------------
E----------------------------------------------------------------


e------------------0---------0-----------------------------
B---3----x----3----0----3----0---3-------------------------
G---4----x----4----2----4----2---4-------------------------
D---4----x----4----2----4----2---4-------------------------
A---2----x----2----0----2----0---2-------------------------
E----------------------------------------------------------

e-----------------------------------------------------------------
B-----0-----0-----0-----------------------------------------------
G--------5-----5--------------------------------------------------
D--7-----------------7--------------------------------------------
A----------------------------------------------------------------
E----------------------------------------------------------------

^ do that ALOT!!

then end on 

e-----------------------------------------------------------------
B-----------------------------------------------------------------
G-----------------------------------------------------------------
D-----3-----------------------------------------------------------
A-----x-----------------------------------------------------------
E-----1-----------------------------------------------------------