Studio Version:

Album: Some Devil

 

Grey Blue Eyes













Tuning: Standard

E-A-D-G-B-E


Difficulty: ***

Advanced


Additional Tabs:



Useful Videos:


Comments: This tab has been made available by Eric Wormann and is Trey's Part.  DAVE DOES NOT PLAY GUITAR ON THIS SONG.


Intro

E:-|-----|-3-----------|-----|---|-----2-----|-0---|-----|-------------
B:-|-0-3-|-----3/5\3---|-1---|---|-1/3-------|---1-|-1/3-|-------------
G:-|-0---|---4-------2-|---4-|-2-|-------2-0-|-----|-----|-<12>-<5>-4--
D:-|-0---|-------------|-----|---|-----------|-----|-----|-------------
A:-|-----|-------------|-----|---|-----------|-----|-----|-------------
E:-|-----|-------------|-----|---|-----------|-----|-----|-------------

Verse (I fear...)

E:------------------------------

B:-3h5p3p0----------------------
G:---------2-----2-0------------
D:-----------0-4-----2-4-5-4-5-- x8
A:------------------------------
E:------------------------------


Chorus (Stone, stone has pulled me down...)

E:-----3-|--------------------|-----|-------------------|------
B:-------|-------3-3h5p3p0----|-----|---3h5p3p0---------|------
G:---4---|---0-2-----------2\-|-----|-----------2-------|---0--
D:-2-----|-4------------------|---2-|-2-----------0-2-4-|-5----
A:-------|--------------------|-3---|-------------------|------
E:-------|--------------------|-----|-------------------|------


E:-----|-----|---------------|-----|----
B:-----|-----|---3h5p3p0-----|-----|----
G:-2-0-|-4-0-|-5---------4-2-|-0-0-|-2--
D:-----|-----|---------------|-----|----
A:-----|-----|---------------|-----|----
E:-----|-----|---------------|-----|----


E:-----------------------------|--------------------------------
B:-3h5p3p0---------------------|-3h5p3p0------------------------
G:---------2-----2-0-----------|---------2-----2-0--------------
D:-----------0-4-----2-4-5-4-5-|-----------0-4-----2-4-5-2-4-5--
A:-----------------------------|--------------------------------
E:-----------------------------|--------------------------------


Verse (Don't forget...)

E:-----------------------------|------------------------------
B:-3h5p3p0---------------------|-3h5p3p0----------------------
G:---------2-----2-0-----------|---------2-----2-0------------
D:-----------0-4-----2-4-5-4-5-|-----------0-4-----2-4-5-4-5--
A:-----------------------------|------------------------------
E:-----------------------------|------------------------------


Chorus (You remember...)

E:-----3-------|-------2-|---|-------------|-----|------------
B:-------------|-----3---|---|-3h5p3-------|-----|------------
G:---4-----4-0-|---2-----|---|-------4-0---|-0-0-|-2-----2-0--
D:-2-----2-----|-0-------|---|-----------4-|-----|---<5>------
A:-------------|---------|-3-|-------------|-----|------------
E:-------------|---------|---|-------------|-----|------------


E:-------------|---------|---|---|-----|--

B:-------------|---------|---|---|-----|--

G:-4-----4-<5>-|-4/5-----|-4-|-2-|-<5>-|--

D:---<5>-------|-----<5>-|---|---|-----|--

A:-------------|---------|---|---|-----|--

E:-------------|---------|---|---|-----|--


Verse (You're gone...)

E:----------------------------------

B:-3h5p3p0--------------------------

G:---------2---0---2-0--------------

D:-----------0---0-----0-4-5-2-4-5-- x4

A:----------------------------------

E:----------------------------------


E:---------------

B:---------------

G:---0---0----0--

D:-5---5---/5----

A:---------------

E:---------------