Studio Version:

Most Helpful Video:

Album: Some Devil

 

Gravedigger













Tuning: Standard

E-A-D-G-B-E


Difficulty: ***

Advanced


Additional Tabs:



Helpful Videos:

1st Version

E:------------------------------
B:------------------------------
G:-----------11--12---12----12--
D:--------7-----------------x---
A:-----9--------------------x---
E:-10--------------------8--8---
   3   2  1   4  4    4  1


Intro

Play the chorus w/ these hammer ons for Intro

Usually starts w/ the "Fill" also

E:---------------0----0--0------0-----------

B:---0h1--1------0h1--1--0------0------0h1--
G:---2----2------2----2--2------1------2----
D:---2----2------2----2--2------2------2----
A:-0-0----0------x----x--x------2----0-0----
E:-------------3-3----3--3----0-0-----------
     (1)       4              0        (1)


Fill

E:----------------
B:---0h1--1----0--
G:---2----2----2--
D:---2----2----2--
A:-0-0----0----0--
E:----------------
     (1)


Verse

E:--------0------1---------
B:-1------0------1------1--
G:-2------2------2------2--
D:-2------2------3------2--
A:-0------x------3----0-0--
E:------3-3----1-1---------
        4      1       


Chorus

Keep your fingers in the same spot and just move your 2nd finger for the last chord

E:--------0------0------------0---------
B:-1------0------0------1-----0------3--
G:-2------2------1------2-----2------2--
D:-2------2------2------2-----2------x--
A:-0------x------2----0-0-----x------x--
E:------3-3----0-0----------3-3----2-2--
        4                   4      2


"Ring Around the Rosie..."

When leading back into verse, don't play last chord

E:-1----1---------3--1--
B:-3----1----1----0--3--
G:-2----2----0----0--3--
D:------3----2----0--3--
A:------3----3----2--1--
E:------1---------3-----


Ending

Play last E-Chord with same finger of the Barred F

To end song, Don't play the last chord

E:--------0------1------0--
B:-1------0------1------0--
G:-2------2------2------1--
D:-2------2------3------2--
A:-0------x------3------2--
E:------3-3----1-1----0-0--
        4      1