Tuning: Standard

E-A-D-G-B-E


Difficulty: ***

Advanced


Additional Tabs:



Helpful Videos:

Most Helpful Video:

 

Granny













Verse
See finger chart for this section
E:-------------------------------------
B:-5h7--7----5--3/5--5---3-------------
G:-7----7----7--2/4--4---2-------------
D:-------------------------------------
A:-------------------------------------
E:--------------------------3---2---x--


"Love..."/"Baby..."
E:-2-----------
B:-3-----------
G:-2---5----2-- <---1
D:-0---x----x--
A:-----8----5-- <---4
E:-----6----3-- <---2


"Stop...Only, old and wise..."
E:-3----------------------
B:-3----------------------
G:-0--5/7--5---7---2---6--
A:-0--x----x---x---x---x--
D:-2--x----x---x---x---x--
E:-3--5/7--5---7---2---5--


E:----------------------- 
B:----------------------- 
G:-7---2---6----2----9--- 
A:-x---x---x----3---(5)-- 
D:-x---x---x----3----x--- 
E:-7---2---5----1----8---