Studio Version:

Most Helpful Video:

Album: Busted Stuff

 

Grace Is Gone













Tuning: Standard

E-A-D-G-B-E


Difficulty: ***

Advanced


Additional Tabs:



Helpful Videos:

> Dave and Tim '13

There is a lot of variation thrown in here.  Try to hit the Bass notes then just the chords you are picking every now an then(only in 1st Verse)


Intro/Fill

E:---------------------------------
B:----3---------3---------3-----3--
G:----2---2-----2---2-----------2--
D:-0--0------0--0------0-----0--0--
A:---------------------------------
E:---------------------------------
          1         1     3


1st Verse Part

Leads into either "2nd Verse Part" or Chorus

E:---------------------------------------------------
B:----3---------3-----3------------3--------3-----3--
G:----2---2-----------2------2--------------0-----0--
D:-0---------0-----0--0---4-----4-----4--2-----2-----
A:---------------------------------------------------
E:---------------------------------------------------
          1     3         4  1  4  3  4  1  3  1  3


E:---------------------------------------------
B:-3----3--------3----------3------------3-----
G:-0h2--------2--2h4--2------------------------
D:-0-------0-------------0---------0-----------
A:------------------------------2-----2-----2--
E:---------------------------------------------
   (1)  3     1  (4)  1     3   1     1  3  1


2nd Verse Part

Played after 1st Verse Part for 1 go around

E:---------------------------------------------------------
B:-3----3--------3----------3------------3--------3-----3--
G:-0h2--------2--2h4--2------------2--------------0-----0--
D:-0-------0-------------0------4-----4-----4--2-----2-----
A:---------------------------------------------------------
E:---------------------------------------------------------
   (1)  3     1  (4)  1     3   4  1  4  3  4  1  3  1  3


E:--------------------------------------------------
B:-3----3--------3----------3------------3-----3----
G:-0h2--------2--2h4--2------------------------0h2--
D:-0-------0-------------0---------2-----------0----
A:------------------------------3-----3-----3-------
E:--------------------------------------------------
   (1)  3     1  (4)  1     3   2  1  2  3  2  (1)


Chorus

First chord is a single upstroke

E:-3-3---------3-----0-0---------0-----2-2---------2--------------------
B:-0-------0---0-------3-----3---3-------3-----3---3-----2-2-----2---2--
G:-0---0-------0-------2-2-------2-------4-4-------4-------2-2-------2--
D:-0-----------0-----0-0---0---0-0-------4---------4-------2---------2--
A:-2-----------2-----------------------2-2---2---2-2-----0-0---0---0-0--
E:-3-3---3---3-3--------------------------------------------------------
         3   3           1   3             4 1 2 1       1 1 1   1   1

End Chorus

Last chord is fingered as if x-4-2-2-2-x

E:-3-3---------3-----0-0---------0--------------------
B:-0-------0---0-------3-----3---3-----2-2-----2---2--
G:-0---0-------0-------2-2-------2-------2-2-------2--
D:-0-----------0-----0-0---0---0-0-------2---------2--
A:-2-----------2-----------------------4-4---4---4-4--
E:-3-3---3---3-3--------------------------------------
         3   3           1   3             1 3 1 3


"One more drink I'll be gone"

Played at the end of the song before/during jam

E:-------------------------------2-------
B:-3----3---------3----------3---3----2--
G:-0h2--------2---2h4--2---------4----2--
D:-0-------0--------------0------4----2--
A:-------------------------------2----4--
E:---------------------------------------

   (2)  3     1   (4)  1     3