Studio Version:

Most Helpful Video:

Album: Big Whiskey

 

Funny the Way It Is













Tuning: Standard

E-A-D-G-B-E


Difficulty: ***

Advanced


Additional Tabs:



Helpful Videos:

Intro
e--------------
B--------------
G--------------
D--7----5----3-
A--x----x----x-
E--5----3----1-

Verse
e--0--------3--------x-
B--1--------0--------x-
G--2--------0--------3-
D--2--------0--------2-
A--0--------2--------2-
E--0--------3--------1-

Jamming Verses (vary)
e--------------- -0-----------
B--------------- -1-----------
G--------------- -2-----------
D--7----5----3-- -2----5----3-
A--x----x----x-- -0----x----x-
E--5----3----1-- -0----3----1-

Chorus
e------------------------------------
B--x--------x----x--------x----------
G--5--------5----4--------4--------x-
D--5--------5----5--------4--------3-
A--3--------x----x--------2--------3-
E--x--------3----3--------x--------1-

Rundown
e--------------------------------
B--------------------------------
G--------------------------------
D------3-3--------*2*2-3-3-5-5-7-
A----------3-3-5-5---------------
E--1-1---------------------------
*=may be played on the 7th fret, A string

Bridge
e------------------------------------------------------------------
B------------------------------------------------------------------
G------x-x--------5------x--x----------3-3--------5------x---------
D--x-x-3-3-x-x----x------3--2------x-x-x-x-x-x----x------5---- x2 -
A--5-5-----1-1----3------3--3------5-5-----1-1----3------5---------
E------------------------1--1----------------------------3---------

End On
e--0-
B--1-
G--2-
D--2-
A--0-
E--0-