Most Helpful Video:

 

Falling Off the Roof













Tuning: Standard

E-A-D-G-B-E

Song Also Known As:

Jackpot

Comment: Dave plays on high-tuned Veillete guitar


Capo: 5th Fret


Difficulty: ***

Advanced


Helpful Videos:

Intro

----------------------------------------------------------
-----1--------------1--1--1-------1-----------------------
-----0--------------0--0--0-------0-x---------------------
-4-4---4-4-4-----------------/4-4---x-4\-----------0/5-4-- (repeat)
--------------3-3-3----3-------------------2/5-3/7--------
----------------------------------------------------------


-----------------------------3-----------3----
------------------3---3-3--1---1-1-------1----
------------0---------2-2--0---0-0-------0----
-0-2h3--2-2-2-0-0---0-0-0--2---2-2-2-0-2---0--
----------------------------------------------
----------------------------------------------


Verse riff
----------------------------------------------------
----------------------------------------------------
----------------------------------------------------
----------------------------------------------------
-/9-9-9-9--0-3-3-3-/9-9-9-9--2/5-3/7-5--9-9-9-9-2-2-
----------------------------------------------------


Verse
("like changin
   lanes...")
-------------------------------------------0--3--3--3-
----1---3---1-1-1-----1-------3-3---1---3--3--3--3--3-
-0--0---2---0-0-0-----2-------2-2---2---2--2--0--0--0-
-3--2---0---2-2-2-----2----0--0-0---2---0-----0-------
-------------------0--0----2--2-2---0-----------------
------------------------------------------------------


Chorus
-------(0-0)----3----
-1---3------1---3----
-2---2------2---0----
-2---0------2---0----
-0---2------0---2----
---------------------


verse riff
verse
chorus


Break
-3-------3-------3-------3---------
-3-------3-------3-------3---------
-3-------0-------0-------0---------
-0--3-2--0--3-2--0--3-2--0--3-2----
-----------------------------------
-----------------------------------