Studio Version:

Most Helpful Video:

Album: Stand Up

 

Everybody Wake Up (Our Finest Hour Arrives)













Tuning: Standard

E-A-D-G-B-E


Difficulty: ***

Advanced


Additional Tabs:



Helpful Videos:


Verse:
e--------------------|--------------------|
b--------------------|--------------------|
g--------------------|--------------------|
d--------------------|--------------------|
a-----12----10----10-|----10----10----12--|
E--10----10----10----|-10----10----10-----|


Chorus (var. 1):
e-------------|-----------------|
b-------------|-----------------|
g-10-9--------|---------------9-|
d------12-10--|-------9-10-12---|
a-------------|-10-12-----------|
E-------------|-----------------|

(var. 2):
e--------|--------|
b-----1--|--3--1--|
g--2--0--|--0--0--|
d--3--2--|--0--2--|
a--3--3--|--2--3--|
E--1-----|--3-----|


Outro Electric:
e-(10)-8--|--7--5/-|
b--10--8--|--8--8/-|
g--11--9--|--7--7/-|
d--12-----|--------|
a---------|--------|
E---------|--------|