Tuning: Standard

E-A-D-G-B-E


Difficulty: **

Intermediate


Additional Tabs:



Helpful Videos:

Most Helpful Video:

 

Eh Hee













Verse:
Praise God who have many names...
e|--------------------------------------------------------|
B|--------------------------------------------------------|
G|--------------------------------------------------------|
D|--3-----3-------3---------------------------------------|
A|--3-----3-------3---------------------------------------|
E|--1-----1-------1---------------------------------------|


Chorus:
Walking along in this haze of confusion....
e|--------------------------------------------------------|
B|--------------------------------------------------------|
G|----3-------7------5------------------------------------|
D|----x-------x------x----------Repeat--------------------|
A|----1-------5------3------------------------------------|
E|----3-------6------5------------------------------------|


This is a cool little fill you can use during the Eh Hee chanting
e|--------------------------------------|
B|--------------------------------------|
G|----10---8---7---6---5----------------|
D|----x----x---x---x---x--------repeat--|
A|----8----6---5---4---3----------------|
E|--------------------------------------|