Studio Version:

Most Helpful Video:

Album: Stand Up

 

Dreamgirl













Tuning: Standard

E-A-D-G-B-E


Difficulty: ***

Advanced


Additional Tabs:



Helpful Videos:

Intro/Post-Chorus:

e-------------------|--------------------|
b-------------------|--------------------|
g-------------------|--------------------|
d---9-7-6---6h7-6---|-----6-4-2----2-4-2-|
a--------(7)------7-|---4--------4-------|
E-0-------0---------|-0------------------|

Verse (more or less):

e-----|-----|
b-----|-----|
g--1--|--2--|
d--2--|--2--|
a-----|--0--|
E--0--|-----|

*turns out Dave doesn't play anything during the verse live

Chorus:

e---------------------------|
b---------------------------|
g---------------------------|
d-9---9---9-------6h7-6---6-|
a---7---6---6---7-------7---|
E-9-----7-----5-------------|

e---------------------------|
b---------------------------|
g---------------------------|
d-9---9---9-------6-6h7-6---|
a---7---6---6---7---------7-|
E-9-----7-----5-------------|

e---------------------------|
b---------------------------|
g---------------------------|
d-9---9---9-------6-6h7-6---|
a---7---6---6---7---------7-|
E-9-----7-----5-------------|


e-------------|r
b-------------|e
g-------------|p
d-6---6---6---|e
a---4---4---4-|a
E-2-----------|t

Break:

e--0--|--0--|--0--|--------|
b--0--|--0--|--0--|--5--5--|
g--1--|--1--|--1--|--4--4--|
d--2--|--2--|--2--|--2--2--|
a--2--|--2--|--2--|--------|
E--0--|--0--|--0--|--4--4--|
Linds