Most Helpful Video:

 

Dream I Killed God













Tuning: Standard

E-A-D-G-B-E


Difficulty: *

Beginner


Additional Tabs:



Helpful Videos:

the whole song is just Em-D-C-Bm-Em.


variations of Em
E:---------------0---0---
B:---------------8---0---
G:---------------0---0---
D:-----------5---5---5---
A:-------7---7---7---7---
E:---0---0---0---0---0---


variations of D
E:-----------0---0---
B:-----------3---0---
G:-----------0---0---
D:---0---4---4---4---
A:---5---5---5---5---
E:-------------------


variations of C
E:-------0---0---
B:-------1---0---
G:-------0---0---
D:---2---2---2---
A:---3---3---3---
E:---------------


variations of Bm
E:-----------2-------0---
B:-----------3-------0---
G:-----------4---7---7---
D:---0---4---4---4---4---
A:---2---2---2---5---5---
E:---------------7---7---