Most Helpful Video:

Originally by: Neil Young

 

Down by the River













Tuning: Standard

E-A-D-G-B-E


Difficulty: **

Intermediate


Additional Tabs:



Helpful Videos:

verse (D&T)    verse (full band)    fill
-0---0------| |(0)---------------| |-----------------
-3---2------| |(3)---------------| |-----------------
-0---2--etc-| |(0)-----6---------| |----6/7-7-x-7-6--
-2---2------| |-2------x---------| |----x---x-x-x-x--
-2---0------| |-2------4---------| |----4/5-5-x-5-4--
-0----------| |-0------5---------| |-5---------------

"a ride..."
---0---2---0--2--0---2--2--
---1---3---1--3--1---3--3--
---0---4---0--4--0---4--2--
---2---4---2--4--2---4--0--
---3---2---3--2--3---2-----
---------------------------

chorus
--3---2---0----
--0---3---2----
--0---2---2----
--0---0---2----
--2-------0----
--3------------