Tuning: Standard

E-A-D-G-B-E


Difficulty: ***

Advanced


Additional Tabs:



Helpful Videos:


Common Segue:

Most Helpful Video:

 

Doobie Thing













Intro/verse

This is the intro and verse riff

E----------------------------------------
B----------------------------------------
G---------7-8-9-10----------5-7----8-----
D---8-----x-x-x--x----6-----x-x-------3--
A---------5-6-7--8----------3-5-6-----x--
E---6-----------------4---------------1--


bridge

This is the lead-in to the jam

E---------------------------------------------
B---------------------------------------------
G---------7-8-9-10----------5-7-8-5-8-7-5-----
D------8--x-x-x--x-------6--x-x-x-x-x-x-x--3--
A---------5-6-7--8----------3-5-6-3-6-5-3--x--
E---6------------------4-------------------1--


jam

This is where they jam and have various solos between Boyd and Leroi

E---------------------------------------

B---------------------------------------
G--------4---5---7----------4---5---7---
D---5----x---x---x-----5----x---x---x---
A---x----2---3---5-----x----2---3---5---
E---3------------------3----------------