Studio Version:

Album: Some Devil

 

Dodo













Tuning: Standard

E-A-D-G-B-E


Difficulty: ***

Advanced


Additional Tabs:



Helpful Videos:


Intro

E:------
B:------
G:---3--
D:---3--
A:-1-1--
E:------


Verse/"Who did..."

The "who did..." part is played w/ a weird timing

E:--------------------
B:--------------------
G:---3------3------2--
D:---3------x------3--
A:-1-1------1------3--
E:--------3-3----1-1--


Chorus

This is the whole chorus right down to "What would you play...."

E:-----------3----0--------------3---------0------0------0----3---------0-----------
B:------4----0----1--------------0---------1------1------1----0---------1-----------
G:-3----x----0----2--------------0---------0------0------2----0----2----0--------2--
D:-x----1----0----2---------3----0---------2------x------2----0----3----2--------3--
A:-1----3----2----0---------3----2-------3-3----2-2----0-0----2----3----3--------3--
E:-3---------3--------3--1--1----3----------------------------3----1-------------1--


"For all the things..."

The 2nd chord is played when the words to this part stop

E:-----------------
B:-----------------
G:---3----------3--
D:---3----------x--
A:-1-1----------1--
E:------------3-3--


Jam

E:----
B:----
G:-7--
D:-8--
A:-x--
E:-6--