Studio Version:

Most Helpful Video:

Album: Busted Stuff

 

Digging a Ditch













Tuning: Standard

E-A-D-G-B-E


Difficulty: **

Intermediate


Additional Tabs:


Helpful Videos:

> DMB '11

Verse

This song is almost ALL variation, have fun with it

E:--------------
B:--------------
G:---0-------0--
D:---0-------0--
A:---x-----3-3--
E:-3-3----------
   2 2     2 2


Fill

E:-------------------------------------
B:-------------------------------------
G:------5-------4----------------------
D:-/3-------2-----------4-------5---0--
A:------------------2-------3----------
E:-------------------------------------
  (1)   4   1   4   1   4   1   4


Breakdown

Just form normal C-chord shape

Timing is wierd, not hard though, listen for it

E:---------------------------------------------
B:----------3---------------3---------------1--
G:----------0---------------0---------------0--
D:-----4---------4-------4------4--------2-----
A:-5-----------------5---------------3---------
E:---------------------------------------------
   3   2    1    2   3   2  1   2    3   2  1