Studio Version:

Most Helpful Video:

Album: UTTAD

 

Dancing Nancies - Tim's Parts













Tuning: Standard

E-A-D-G-B-E


Difficulty: Tim n/a



Additional Tabs:


Helpful Videos:

> Dave and Tim '09

Verse:
E---------------------------------------
B---------------------------------------
G---------------------------------------
D------7--5~-5/------5--4b--2-----------
A----5-------------4----------5--4p2p0--
E--3-------------2----------------------

"Look Up at the Sky...."
-5----0----0------
-5----10---5------
-6----11---6------
-7---(12)-(7)-----
------------------
------------------

The first chord is in unison with the chord that's hit hard right before he sings "look up at the sky".  the second two are alternated...finger picked or strummed gently.

THIS TABBED BY GUNNAR

** Radio City Music Hall (4/22/07) **

    Verses

E)---------------------------------------------------------------------
B)---------------------------------------------------------------------
G)---------------------------------------------------------------------
D)----------7--5~~~--5p7--------------5---4b5--------------------------
A)-----5--------------------------4--------------4--2--0---------------
E)-3--------------------------2----------------------------------------

  *one verse tim plays this (Dave might just be playing it not singing)
E)---------------------------------------------------------------------
B)---------------------------------------------------------------------
G)---------------------------------------------------------------------
D)---------------------------------------------------------------------
A)---------------------------------------------------------------------
E)--3--5--3--7~~----3--5--3--7~~----3--5--2--6~~----3--5--2--6~~-------

   "Look up at the sky"
   *fingerpick these with the correspoding chord Dave is playing*
      D    A
E)-------------
B)----10---0---
G)----11---6---
D)----0----7---
A)---------0---
E)-------------

  "Sing and Dance, I'll play"

E)-------------------------------------------
B)--------------------------------------7\x--
G)----7---11---6---4--------------------6\x--
D)----9---12---7---6--(end with this)---4\x--
A)----9---12---7---6-------------------------
E)----7---10---5---4-------------------------

  Solo

E)-----------------------------2---------------------------------------
B)---------------------3~--2-3---5-3-2---------------------------------
G)-----0-------0trem-------------------4-3-3b4------3h4p3--------------
D)--------4-------------------------------------4h5-------5-4----------
A)---------------------------------------------------------------------
E)---2-----------------------------------------------------------------

E)-----2-3-3-3-2-------------------------------------------------------
B)-3-5-----------5-3-2-3-3b4-3b4-2-3-3b4-3b4r3--2-3-2-2b3-2b3r2--------
G)--------------------------------------------------------------4-3-3b4
D)---------------------------------------------------------------------
A)---------------------------------------------------------------------
E)---------------------------------------------------------------------


E)-----------------------------------------7-9-10-10-10--9-9-9---------
B)---------------------------5-7-8-8-8-7-5---------------------12-12-12
G)-----3h4p3---------3-4-6-7-------------------------------------------
D)-4h5-------5-4-4-5---------------------------------------------------
A)---------------------------------------------------------------------
E)---------------------------------------------------------------------

E)-------------------------------------------------------9-9-9-10-10-10
B)-11-11-11----------------------------11-11-11-12-12-12---------------
G)----------12-12-12-11-11-11-12-12-12---------------------------------
D)---------------------------------------------------------------------
A)---------------------------------------------------------------------
E)---------------------------------------------------------------------

E)-12-12-12~----12--9h10p9--------9-10--9h10p9-------------------------
B)--------------------------12-11---------------12-11~~----------------
G)---------------------------------------------------------------------
D)---------------------------------------------------------------------
A)---------------------------------------------------------------------
E)---------------------------------------------------------------------

E)----------9h10p9------------
B)---11h12----------12-11-----
G)----------------------------    [repeat many times very fast)
D)----------------------------
A)----------------------------
E)----------------------------

E)--12-14-15-14-12----------------------
B)-----------------15-14-12-14-15-------
G)-------------------------------------- [repeat EXTREMELY fast]
D)--------------------------------------    [tremelo picking]
A)--------------------------------------
E)--------------------------------------

   *tremelo pick all of these notes

E)--14b15--14--12--------------------------12---
B)-----------------15-14-12-14-15-14-12-11------
G)----------------------------------------------[rinse, lather, repeat]
D)----------------------------------------------
A)----------------------------------------------
E)----------------------------------------------

   *tremelo pick and grow slightly faster as you play

E)----14-15------
B)---------------
G)---------------
D)---------------
A)---------------
E)---------------


  When Tim goes strum crazy at the very end

     *strum all very fast and tremelo the last pair
E)--0--0-----------------------15--14----------------------------------
B)--0--0-------12--11----------12--11----------------------------------
G)--4--3-------12--11------------------(end on)--3\x-------------------
D)--5--4-------12--11----------------------------4\x-------------------
A)--5--4-------10--9-----------------------------4\x-------------------
E)--3--2-----------------------------------------2\x-------------------