Studio Version:

Most Helpful Video:

Album: BTCS

 

Crush













Tuning: Drop-D

D-A-D-G-B-E


Difficulty: ***

Advanced


Additional Tabs:


Helpful Videos:

> Dave Solo '04

> Dave and Tim '10

Intro

Strum a Bm chord lightly

E:----
B:-3--
G:-4--
D:-4--
A:-2--
D:----


Verse

Chord with X under it is one you end on when transitioning to Chorus

E:-----------------------------
B:-3----3----3----2------------
G:-x----0----2----2----4----5--
D:-4----4----x----x----x----x--
A:-2----2----x----x----x----x--
D:-----------2----2----3----5--
                  X


Transition into Verse

E:----------
B:----------
G:-5--------
D:-5-----5-- <---4
A:-3-----2-- <---1
D:----------


Transition into "Lovely Lady..."/"Middle Jam"

E:---------
B:---------
G:-5----4--
D:-5----2--
A:-3----2--
D:------2--


"Lovely Lady..."

E:------------
B:------------
G:-7-------9--
D:-5-------9--
A:-5-------7--
D:-5-------7--


Chorus

E:--------------------------
B:--------------------------
G:-12-----12-----12-----12-- <---4
D:-10-----12-----10-----9--- <---2on10(3on12, 1on9 & 2nd 10)
A:-8------10-----10-----10-- <---1on8 & 1st,2nd 10(2on 3rd 10)
D:--------------------------


Middle Jam

All played barred with 2nd Finger

E:------------         E:--------------------------------------
B:------------         B:--------------------------------------
G:------------         G:--------------------------------------
D:-5---3---2-- x2 then D:-5---3---12---10---9---8---5---3---2-- x2
A:-5---3---2--         A:-5---3---12---10---9---8---5---3---2--
D:-5---3---2--         D:-5---3---12---10---9---8---5---3---2--


End Jam

E:----------------         E:---------------
B:----------------         B:---------------
G:------4-----4---         G:------4-----4--
D:------4-----2--- x2 then D:------4-----2-- x2
A:-0h2--2---------         A:------x--------
D:----------------         D:-0h2--2--------