Studio Version:

Most Helpful Video:

Album: BTCS

 

Crush - Tim's Parts













TuningStandard

E-A-D-G-B-E


Difficulty: Tim n/a



Additional Tabs:


Helpful Videos:

> Dave Solo '04

> Dave and Tim '10

Verse:(Crazy, how it…) 
-2-----2-2---1----3-----2- 
-3--8--3-2---1----0--1--3- 
-4--7--4-2---2----0--0--4- 
-4--9--2-2---3----0--2--4- 
-2-----5-5---3----2--3--2- 
-----------1-1--3-3------- 
    ****** 

Lovely Lady…         * 
------------------------------ 
-3--/5-5-3--/5--0-5-----1-5--- 
-2--/4-4-2--/4--4-4--9--0-7--- 
-0-------0------2-2--7--2-6--- 
-0-------0--------------3-7--- 
-3-------3-------------------- 
                      
And to wonder this… 
---------------------------0--7---7---7---7----2-2-- 
-3--/5-5-3--/5--0-5-------1----7---7---7---7---3-2-- 
-2--/4-4-2--/4--4-4--9---0------7---7---7---7--4-2-- 
-0-------0------2-2--7--2--------9-------9-----2-2-- 
-0-------0-------------3--------------9------9-5-5-- 
-3-------3------------------------------------------ 

Chorus: (It’s crazy, I’m thinking) 
-1--3--------------- 
-1--0--1--3-1-0----- 
-2--0--0--0-----2-0- 
-3--0--2--0--------- 
-3--2--3--2--------- 
-1--3--------------- 

End of Chorus: (the more I love you…) 
-1--3-----2-- 
-1--0--1--3-- 
-2--0--0--4-- 
-3--0--2--4-- 
-3--2--3--2-- 
-1--3-------- 
          ^ 

*: sometimes played: 
-----7--7--7----- 
-------------1-5- 
-9--9--9--9--0-7- 
-7-7--7--7---2-6- 
-------------3-7- 
----------------- 

^: First chord of verse.  Goes right back into the verse. 


****** Seen it played like that or: 

-2-------------- 
-3--3-2--------- 
-4--2-2--------- 
-2--x-x--------- 
-5--2-2--------- 
----0-0---------