Most Helpful Video:

 

Crazy-Easy













Tuning: Standard

E-A-D-G-B-E


Difficulty: ***

Advanced


Additional Tabs:



Helpful Videos:

2013 Version:


Intro/Mid-Riff/Ending
e|--------------------0---3---2---0------x-----0---3---2---0----
B|--------------------2---3---3---2-----12-----2---3---3---2----
G|--4---4---4---4-----2---0---2---2------x-----2---0---2---2----
D|--6---4---2---4-----2---0---0---2------9-----2---0---0---2----
A|--------------2-----0---2---0---0------x-----0---2---0---0----
E|--------------------0---3-------0------------0---3-------0----


Verse
e|------------x---------
B|------------x---------
G|--4---(3)--(2)---4----
D|--1----4----2----4----
A|--2----4----2----2----
E|--4----2----0---------


Chorus
e|---3-------------0----
B|---3-------------2----
G|---0-------------2----
D|---0-----0h4-5---2----
A|---2-----5---5---0----
E|---3-------------0----