Studio Version:

Most Helpful Video:

Album: Crash

 

Crash Into Me - Tim Fills













Tuning: Standard

E-A-D-G-B-E


Difficulty: Tim n/a



Additional Tabs:


Helpful Videos:

> Dave and Tim '09

Intro/Verse

This was played at D&T (Duke University-1999). Pretty cool sound. The section is tremolo picked (really fast).

E:-----
B:--17-
G:--16-
D:-----
A:-----
E:-----

then to

E:--16-
B:--17-
G:-----
D:-----
A:-----
E:-----

End of Verse

use for the part "Crash...into me"

E:---0xx--------------------
B:---5xx--------------------
G:---4xx-------or---------9-
D:---2xx-6x7x9------------9-
A:-4-4xx----------7x9x11--7-
E:-------4x5x7----4x5x-7----


Chorus

"In a boy's dream...".

E:--0002-0000002---
B:--5555-5555555---
G:--4444-4444444---
D:-----------------
A:-----------------
E:-----------------
or
E:--0004-0000004---
B:--5555-5555555---
G:--4444-4444444---
D:-----------------
A:-----------------
E:-----------------
or
E:---0--0--0-14----0--0--0--0--0-14-
B:--12-12-12-12---12-12-12-12-12-12-
G:--11-11-11-11---11-11-11-11-11-11-
D:----------------------------------
A:----------------------------------
E:----------------------------------