Tuning: Standard

E-A-D-G-B-E


Difficulty: ***

Advanced


Additional Tabs:


Helpful Videos:

Most Helpful Video:

 

Cornbread













Main Riff
      1   1   4   1   1   4   4   4   1   1   4   1   1   4   1   1      
E:-----------------------------------------------------------------------
B:-----------------------------------------------------------------------
G:------0---0---0---0---0---0---0---0---0---0---0---0---0---0---0---0----
D:----5---5---7---3---3---5---5---5---5---5---7---3---3---5--------------
A:------------------------------------------------------------3---2------
E:-----------------------------------------------------------------------


    (basic pattern)
E:------3-3------3-3----
B:------3-3--3-3-3-3----
G:--0-0-0-0--0-0-0-0----
D:--0-0-0-0--2-2--------
A:--2-2------3-3--------
E:--3-3-----------------


Break 1 (***2-26-07 version***)
E:-------------
B:-------------
G:--0--0--0--0- x 3   
D:--0--0--0--0-     
A:--3--3--3--2-     
E:--5--1--3--3-     


(basic picking pattern - mixed with some strumming)
E:----------------------------------------------------------------
B:----------------------------------------------------------------
G:----------------------------------------------------------------
D:-------0----------0-----------0--------------0-----------0-etc.-
A:---3--------3-----------3-----------3----3---------3------------
E:-5---5--(5)---(5)---(5)---(5)---(5)----1---1---(1)---(1)--------


                             "it's all inside my head..."
Break 2                      (fingerpicked by Tim, strummed by Dave)
E:-------------            E:--------------
B:-------------            B:--4--3--2--1--
G:--0--0--0--0- x 2 then   G:--0--0--0--0-- x 2
D:--0--0--0--0-            D:--5--4--3--2--
A:--3--3--3--2-            A:--6--5--4--3--
E:--5--1--3--3-            E:--------------


Break (***3-2-07 version***)
E:----------3--------
B:--1---1---0--------
G:--2---2---0--------
D:--2---2---0--------
A:--0---0---2--------
E:------1---3--------