Come On Come On

Studio Version:

Most Helpful Video:

 

Dave plays this in Raised-B tuning, which you can achieve by using a capo on the 7th fret.


Intro/Verse/Chorus

E |--0-0-0--0-0-0--0-0-0--
B |--2-3-2--2-3-2--2-3-2--
G |--2-2-2--2-2-2--2-2-2-- x2
D |--0-0-0--0-0-0--0-0-0--
A |--0-0-0--0-0-0--0-0-0--
E |-----------------------

E |--0-0-0--0-0-0--0-0-0--
B |--0-0-0--0-0-0--0-0-0--
G |--1-2-1--1-2-1--1-2-1-- x2
D |--2-2-2--2-2-2--2-2-2--
A |--2-2-2--2-2-2--2-2-2--
E |-----------------------

Verse

Note: When playing live, Dave will sometimes just play these chords, instead of the tabs above.
E |------------
B |---2----0---
G |---2----1---
D |---2----2---
A |---0----2---
E |--------0---

Pre Chorus/Bridge ("Shoot straight"/"Slow as we go")

​Note: When playing live, Dave does not always play this part.
E |--------------
B |--------------
G |--------------
D |--2--0--0--0--
A |--3--2--2--0--
E |--------3--2--
















Tuning: Standard

E-A-D-G-B-E


Difficulty: Medium


Capo: 7th Fret


Additional Tabs:



Helpful Videos: