Tuning: Standard

E-A-D-G-B-E


Difficulty: ***

Advanced


Additional Tabs:


Helpful Videos:

Cigarette Lit













Most Helpful Video:

 

Verse "Cigarette lit..."
E|---------------------------------------
A|---------------------------------------
D|----6------6------6------2------2------
G|----4------4------4------0------0------
B|---(5)----(5)----(5)-----x------x------
E|-7--7---3--3---5--5---2--2---1--1------


Pre-Chorus "Excuse me please..."
E|---------------------
A|-3---0---2---3-------
D|-4---1---2---2-------
G|-4---2---2---0-------
B|-2---2---0-----------
E|-----0---------------


Chorus "The rain falls down..."
E|----------
A|-2---3----
D|-2---2----
G|-2---0----
B|-0--------
E|----------


Post-Chorus "And all I beg..."
E|-----------
A|-2---0-----
D|-2---1-----
G|-2---2-----
B|-0---2-----
E|-----0-----


Outro
E|----------------------------
A|----------------------------
D|-6---4---/7------2------2---
G|-0---0----0------0------0---
B|-x---x----x------x------x---
E|-5---4---/7---2--2---1--1---