Studio Version:

Most Useful Video:

Album: Remember Two Things

 

Christmas Song













Tuning: Standard

E-A-D-G-B-E


Difficulty: ***

Advanced


Additional Tabs:


Useful Videos:

> Dave and Tim '09

Verse

This is played with fingers 1 and 2 on right hand(1 on the lower string and 2 on the higher string)

E:------------------------
B:------------------------
G:-7---7--0---------------  <---4
D:-4\5-4--0--7---7--0--5--  <---1(4on7&5)
A:-----------4\5-4--0--2--  <---1
E:------------------------
   (1)       (1)


"...Husband"

This is played after the verse for only the first two verses sung

This is also played with fingers 1 and 2 on right hand

E:-------
B:-------
G:-------
D:-7--5--
A:-5--3--
E:-------


"Love, Love Love..."

This is played with the thumb and finger 1 on right hand(Thumb the lower string and finger 1 on the higher string)

Dave forms a G, A & Bm chord when playing those notes

E:-----------------
B:--0---2---3---3--  <---1on1(2on3)
G:-----------------  <---4
D:-----------------
A:------0---2---2--  <---1
E:--3--------------  <---3


"When Jesus Christ..."

This is also played with the thumb and finger 1 on right hand

E:-----------------
B:--2---3---0---2--  <---1on1(2on3)
G:-----------------  <---4
D:-----------------
A:--0---2-------0--  <---1
E:----------3------  <---3


Ending

E:--------------2---
B:----0---2----3----
G:------------2-----
D:-----------0------
A:------0-----------
E:--3---------------
    3     1