Most Helpful Video:

 

Can't Stop













Tuning: Standard

E-A-D-G-B-E


Difficulty: **

Intermediate


Additional Tabs:



Helpful Videos:

|---------------------------------------------------------|
|---------------------------------------------------------|
|---------------------------10h11-------------------------|
|----------10h12-----10h12---------12p10-12p10-----10h12--|
|-----12----------12----------------------------12--------|
|--10-----------------------------------------------------|


"I'm like a junkie for you baby..."
|-----
|-----
|-----
|--10-
|--10-
|--8--


so hungry, you make me, so hungry, you make me...

|-------------|
|-------------|
|-------------|
|--9---7---5--|
|--9---7---5--|
|--7---5---3--|


so hungry, you make me, I surrender

|-----------------|
|-----------------|
|-7-7-6-6-4-4-----|
|-7-7-6-6-4-4-7-5-|
|-5-5-4-4-2-2-7-5-|
|-------------5-3-|


I'm cookin' up like a junkie for you baby
|----|
|----|
|--5-|
|--5-|
|--3-|
|----|