Tuning: Standard

E-A-D-G-B-E


Difficulty: ***

Advanced


Additional Tabs:



Helpful Videos:

Most Helpful Video:

 

Butterfly













After intro/verse riff           
------------------------
--3--3--3---------------
--x--x--0h2-------------
--4--4--0----0h2-etc----
--2--2--0---------------
--3--2--0---------------


--------------------------------------
--3--3--3----3----3-----3----3--------
--0--0--0h2--x----x-----x----0--------
--0--0--x----0h2--2h4---2----x--etc---
--x--x--3----3----3-----3----2--------
--2--3--------------------------------


E:------------------------------------------------|
B:-3---3-3------3-3------3-3------3-3-3-3-3-3-3-3-|
G:-0h2-2-2------x-x------x-x------x-x-x-x-x-x-x-x-|
D:----------0h2-2-2--2h4-4-4------4-4-4-4-4-4-4-4-|
A:----------------------------0h2-2-2-2-2-2-2-2-2-|
E:------------------------------------------------|
   
Chorus
E:---0-0-----0-0------------------------|
B:---0-0-----1-1-------------3-3-3-3----|
G:---0-0-----0-0-----0-0-----2-2-2-2----|
D:---2-2-----2-2-----x-x-----0-0-0-0----|
A:---2-2---3-3-3---2-2-2-----x-x-x-x----|
E:-0-0-0-----------------2-2-2-2-2-2----|
   

Post Chorus
E:------------0----------------|
B:---0-----0--1/3-----3-----3--|
G:---0-----0--0----------------|
D:---0-----0--2/4-----4-----4--|
A:---x--------3/5---3-3--------|
E:-3-3---3----------------5----|