Studio Version:

Most Helpful Video:

Album: Busted Stuff

 

Busted Stuff













Tuning: E-G-B-E-B-E


Difficulty: ***

Advanced



Additional Tabs:


Helpful Videos:

> DMB '02

Verse

E:----------------------------------------------------------
B:----------------------------------------------------------
E:-3----3---3---3----3---2---3----3-------2---2-------3--3--
B:-3h5--3---3---3h5--3---3---3h5--3---5---3---3---5---3--3--
G:-5----5---0---5----5---2---5----5---5---x---2---5---0--0--
E:------------------------------------5---2-------5---------
   (4)          (4)          (4)      3           3


"I know she's gonna leave..."

E:--------------------------------------
B:--------------------------------------
E:-2---------3----2-----2--------2------
B:-3----5----3----3-----3---5----3---3--
G:-2----5----0----x-----2---5----x---x--
E:------5---------2---------5----2---3--
        3                   3


Played as "I know..." part to lead into Breakdown

Played only right before going into the Breakdown

E:-----------------------------
B:-----------------------------
E:-3----5----3----2-----3---5--
B:-3---------3----3-----3------
G:-5----2----0----x-----5---2--
E:----------------2------------


Breakdown

Hit once every 8 beats

E:----
B:----
E:-3--
B:-3--
G:-3--
E:----
   1