Studio Version:

Most Helpful Video:

Album: Away From the World

 

Broken Things













Tuning: Standard

E-A-D-G-B-E


Difficulty: ***

Advanced


Additional Tabs:



Helpful Videos:

Intro/Main Riff:
             D
E|-------------
B|-----------7-
G|-----------7- 
D|----5---7--7-
A|-/7---7----5-
E|--0----------

Verse:
E|------------------------------
B|------------------------------
G|--7-7-6-7--6-7-4--6--4-6-2-4-6- Repeat
D|--0-0-0-0--0-0-0--0--0-0-0-0-0-
A|--X-X-X-X--X-X-X--X--X-X-X-X-X-
E|--7-7-5-7--5-7-3--5--3-5-2-3-5-

Chorus:
    D    Em   A/C#
E|----------------
B|----------------
G|--11---12------- Repeat 2x (4x Last Chorus)
D|-------9----11--
A|--9----10---12--
E|--10---12---9---

Solo after Chorus (Bridge):
E|--0----0-0---------------------
B|--8----8-8---------------------
G|--0----0-0---------------------
D|--9----X-X---10---10-10--9--9--
A|--10---9-9---10---10-10--10-10-
E|--0----0-10--8----8--8---7--7--