Black and Blue Bird













 

Most Helpful Video:

Tuning: Standard

E-A-D-G-B-E


Difficulty: ***

Advanced


Additional Tabs:



Helpful Videos:

The timing is tricky on this one. I highly recommend listening to the song as you play these tabs to figure out the timing. Dave fingerpicks the entire song.


Verse:

E|-------------------------------(3)---
B|---3----3---3-----3---3-----3---3----
G|---2----2---2-----0---0-----0--------
D|-0~0--4---------2---------0~---------
A|----------4~4-------2~2---------2----
E|------------------------------3~3----

     3  4   4     1   1         2  

     1         


Chorus:
E|--------------------------
B|---5-----5-3-(2)-3--2--3--
G|---4-----4-4--2--4--2--4--
D|--------------2-----2-----
A|---2----------0~----------
E|-0~0---3~3-3--------------

Bridge:
E|-----------------
B|--2--4/5-5--3----
G|--2---------2----
D|--2--4/5-5------- Last time through
A|--0------3------- don’t play X chord
E|------------2----

       4   4  X

       2   2

           1