Bismarck

Tuning: Standard

E-A-D-G-B-E


Difficulty:Advanced



Additional Tabs:



Helpful Videos:

 












Most Helpful Video:

Intro/Verse “Little Queen”

e|-----------------------------------

B|----------------------------------- 

G|----------------------------------- 

D|----4---5---5---5---5---5---5---5-- 

A|--5---5---5---5-------5-------5---- 

E|------------------3-------3-------- 


e|------------------------

B|------------------------ 

G|------------------------ 

D|----4---5---5---5------- 

A|--5---5---5------------- 

E|--------------3---/7-5-- 


Pre-Chorus “Old bus station”

e|---------------------------------    --------- 

B|---------------------------------    --------- 

G|--6---6--(2)--x---7---6---4---4--    --4---7-- 

D|--7---7---4---2---7---7---4---4-- x2 --2---5-- 

A|--x---x---4---2---5---4---2---2--    --x---x-- 

E|--5---4---2---0------------------    --4---7-- 


Chorus/Jam (“It’s strange to feel so light”)

e|----------------- 

B|----------------- 

G|--9---9---9---9-- 

D|--7---7---7---7--

A|--x---x---5---5-- 

E|--5---9---------- 


Post Chorus (“Hold on”)

e|---------- 

B|---------- 

G|--7---6-- 

D|--x---x-- 

A|--5---4-- 

E|--6---5--