Studio Version:

Most Helpful Video:

Album: Busted Stuff

 

Big Eyed Fish













Tuning: Standard

E-A-D-G-B-E


Difficulty: ***

Advanced


Additional Tabs:

> Violin Intro


Helpful Videos:

> DMB '10

Intro

E:-------------------
B:-------------------
G:-------------------
D:-/9---9\5---5---4-- <---4
A:-/7---7\3---2---2-- <---1
E:-------------------


Verse

Sometimes played with the slides in the intro

E:----------------
B:----------------
G:----------------
D:-9---5---5---4-- <---4
A:-7---3---2---2-- <---1
E:----------------


Chorus

E:-0----0----3----2---
B:-0----1----0----3--
G:-0----0----0----4--
D:-2----2----0----4--
A:-2----3----2----2--
E:-0---------3-------


Transition

E:-----------------------------------0--
B:-3-----8-----3-----8-----3-----8---3-- <---3
G:-x-----x-----x-----x-----x-----x---0--
D:-4-----9-----4-----9-----4-----9---4-- <---4
A:-2-----7-----2-----7-----2-----7---5-- <---1
E:-3-----8-----3-----8-----3-----8------ <---2


Outro to Bartender

Normal C-chord Shape

E:-0--
B:-3--
G:-0--
D:-4--
A:-5--
E:----